  0
SECTION
  2
HEADER
  9
$ACADVER
  1
AC1015
  9
$ACADMAINTVER
 70
     6
  9
$DWGCODEPAGE
  3
ANSI_1254
  9
$INSBASE
 10
0.0
 20
0.0
 30
0.0
  9
$EXTMIN
 10
0.0
 20
0.0
 30
0.0
  9
$EXTMAX
 10
279.4
 20
215.9
 30
0.0
  9
$LIMMIN
 10
0.0
 20
0.0
  9
$LIMMAX
 10
279.4
 20
215.9
  9
$ORTHOMODE
 70
     0
  9
$REGENMODE
 70
     1
  9
$FILLMODE
 70
     1
  9
$QTEXTMODE
 70
     0
  9
$MIRRTEXT
 70
     1
  9
$LTSCALE
 40
1.0
  9
$ATTMODE
 70
     1
  9
$TEXTSIZE
 40
3.5
  9
$TRACEWID
 40
1.0
  9
$TEXTSTYLE
  7
Standard
  9
$CLAYER
  8
0
  9
$CELTYPE
  6
ByLayer
  9
$CECOLOR
 62
   256
  9
$CELTSCALE
 40
1.0
  9
$DISPSILH
 70
     0
  9
$DIMSCALE
 40
1.0
  9
$DIMASZ
 40
3.5
  9
$DIMEXO
 40
1.0
  9
$DIMDLI
 40
3.75
  9
$DIMRND
 40
0.0
  9
$DIMDLE
 40
0.0
  9
$DIMEXE
 40
1.0
  9
$DIMTP
 40
0.0
  9
$DIMTM
 40
0.0
  9
$DIMTXT
 40
3.5
  9
$DIMCEN
 40
2.5
  9
$DIMTSZ
 40
0.0
  9
$DIMTOL
 70
     0
  9
$DIMLIM
 70
     0
  9
$DIMTIH
 70
     1
  9
$DIMTOH
 70
     1
  9
$DIMSE1
 70
     0
  9
$DIMSE2
 70
     0
  9
$DIMTAD
 70
     1
  9
$DIMZIN
 70
     0
  9
$DIMBLK
  1

  9
$DIMASO
 70
     1
  9
$DIMSHO
 70
     1
  9
$DIMPOST
  1

  9
$DIMAPOST
  1

  9
$DIMALT
 70
     0
  9
$DIMALTD
 70
     3
  9
$DIMALTF
 40
0.0393700787
  9
$DIMLFAC
 40
1.0
  9
$DIMTOFL
 70
     1
  9
$DIMTVP
 40
0.0
  9
$DIMTIX
 70
     0
  9
$DIMSOXD
 70
     0
  9
$DIMSAH
 70
     0
  9
$DIMBLK1
  1

  9
$DIMBLK2
  1

  9
$DIMSTYLE
  2
ISO-25
  9
$DIMCLRD
 70
     0
  9
$DIMCLRE
 70
     0
  9
$DIMCLRT
 70
     0
  9
$DIMTFAC
 40
1.0
  9
$DIMGAP
 40
1.524
  9
$DIMJUST
 70
     0
  9
$DIMSD1
 70
     0
  9
$DIMSD2
 70
     0
  9
$DIMTOLJ
 70
     0
  9
$DIMTZIN
 70
     0
  9
$DIMALTZ
 70
     0
  9
$DIMALTTZ
 70
     0
  9
$DIMUPT
 70
     0
  9
$DIMDEC
 70
     2
  9
$DIMTDEC
 70
     2
  9
$DIMALTU
 70
     2
  9
$DIMALTTD
 70
     3
  9
$DIMTXSTY
  7
Standard
  9
$DIMAUNIT
 70
     0
  9
$DIMADEC
 70
     2
  9
$DIMALTRND
 40
0.0
  9
$DIMAZIN
 70
     0
  9
$DIMDSEP
 70
    44
  9
$DIMATFIT
 70
     3
  9
$DIMFRAC
 70
     0
  9
$DIMLDRBLK
  1

  9
$DIMLUNIT
 70
     2
  9
$DIMLWD
 70
    -2
  9
$DIMLWE
 70
    -2
  9
$DIMTMOVE
 70
     0
  9
$LUNITS
 70
     2
  9
$LUPREC
 70
     2
  9
$SKETCHINC
 40
1.0
  9
$FILLETRAD
 40
10.0
  9
$AUNITS
 70
     0
  9
$AUPREC
 70
     2
  9
$MENU
  1
.
  9
$ELEVATION
 40
0.0
  9
$PELEVATION
 40
0.0
  9
$THICKNESS
 40
0.0
  9
$LIMCHECK
 70
     0
  9
$CHAMFERA
 40
0.0
  9
$CHAMFERB
 40
0.0
  9
$CHAMFERC
 40
0.0
  9
$CHAMFERD
 40
0.0
  9
$SKPOLY
 70
     0
  9
$TDCREATE
 40
2458985.682417211
  9
$TDUCREATE
 40
2458985.557417211
  9
$TDUPDATE
 40
2458985.682417569
  9
$TDUUPDATE
 40
2458985.557417569
  9
$TDINDWG
 40
0.0000000116
  9
$TDUSRTIMER
 40
0.0000000116
  9
$USRTIMER
 70
     1
  9
$ANGBASE
 50
0.0
  9
$ANGDIR
 70
     0
  9
$PDMODE
 70
     0
  9
$PDSIZE
 40
-1.0
  9
$PLINEWID
 40
0.0
  9
$SPLFRAME
 70
     0
  9
$SPLINETYPE
 70
     6
  9
$SPLINESEGS
 70
     8
  9
$HANDSEED
  5
CB
  9
$SURFTAB1
 70
     6
  9
$SURFTAB2
 70
     6
  9
$SURFTYPE
 70
     6
  9
$SURFU
 70
     6
  9
$SURFV
 70
     6
  9
$UCSBASE
  2

  9
$UCSNAME
  2

  9
$UCSORG
 10
0.0
 20
0.0
 30
0.0
  9
$UCSXDIR
 10
1.0
 20
0.0
 30
0.0
  9
$UCSYDIR
 10
0.0
 20
1.0
 30
0.0
  9
$UCSORTHOREF
  2

  9
$UCSORTHOVIEW
 70
     0
  9
$UCSORGTOP
 10
0.0
 20
0.0
 30
0.0
  9
$UCSORGBOTTOM
 10
0.0
 20
0.0
 30
0.0
  9
$UCSORGLEFT
 10
0.0
 20
0.0
 30
0.0
  9
$UCSORGRIGHT
 10
0.0
 20
0.0
 30
0.0
  9
$UCSORGFRONT
 10
0.0
 20
0.0
 30
0.0
  9
$UCSORGBACK
 10
0.0
 20
0.0
 30
0.0
  9
$PUCSBASE
  2

  9
$PUCSNAME
  2

  9
$PUCSORG
 10
0.0
 20
0.0
 30
0.0
  9
$PUCSXDIR
 10
1.0
 20
0.0
 30
0.0
  9
$PUCSYDIR
 10
0.0
 20
1.0
 30
0.0
  9
$PUCSORTHOREF
  2

  9
$PUCSORTHOVIEW
 70
     0
  9
$PUCSORGTOP
 10
0.0
 20
0.0
 30
0.0
  9
$PUCSORGBOTTOM
 10
0.0
 20
0.0
 30
0.0
  9
$PUCSORGLEFT
 10
0.0
 20
0.0
 30
0.0
  9
$PUCSORGRIGHT
 10
0.0
 20
0.0
 30
0.0
  9
$PUCSORGFRONT
 10
0.0
 20
0.0
 30
0.0
  9
$PUCSORGBACK
 10
0.0
 20
0.0
 30
0.0
  9
$USERI1
 70
     0
  9
$USERI2
 70
     0
  9
$USERI3
 70
     0
  9
$USERI4
 70
     0
  9
$USERI5
 70
     0
  9
$USERR1
 40
0.0
  9
$USERR2
 40
0.0
  9
$USERR3
 40
0.0
  9
$USERR4
 40
0.0
  9
$USERR5
 40
0.0
  9
$WORLDVIEW
 70
     1
  9
$SHADEDGE
 70
     3
  9
$SHADEDIF
 70
    70
  9
$TILEMODE
 70
     1
  9
$MAXACTVP
 70
    64
  9
$PINSBASE
 10
0.0
 20
0.0
 30
0.0
  9
$PLIMCHECK
 70
     0
  9
$PEXTMIN
 10
1.0000000000E+20
 20
1.0000000000E+20
 30
1.0000000000E+20
  9
$PEXTMAX
 10
-1.0000000000E+20
 20
-1.0000000000E+20
 30
-1.0000000000E+20
  9
$PLIMMIN
 10
0.0
 20
0.0
  9
$PLIMMAX
 10
420.0
 20
297.0
  9
$UNITMODE
 70
     0
  9
$VISRETAIN
 70
     1
  9
$PLINEGEN
 70
     0
  9
$PSLTSCALE
 70
     1
  9
$TREEDEPTH
 70
  3020
  9
$CMLSTYLE
  2
Standard
  9
$CMLJUST
 70
     0
  9
$CMLSCALE
 40
20.0
  9
$PROXYGRAPHICS
 70
     1
  9
$MEASUREMENT
 70
     1
  9
$CELWEIGHT
370
    -1
  9
$ENDCAPS
280
     0
  9
$JOINSTYLE
280
     0
  9
$LWDISPLAY
290
     1
  9
$INSUNITS
 70
     4
  9
$HYPERLINKBASE
  1

  9
$STYLESHEET
  1

  9
$XEDIT
290
     1
  9
$CEPSNTYPE
380
     0
  9
$PSTYLEMODE
290
     1
  9
$FINGERPRINTGUID
  2
{249f6542-9e92-47a0-8cfc-ee2e227b6bdb}
  9
$VERSIONGUID
  2
{FAEB1C32-E019-11D5-929B-00C0DF256EC4}
  9
$EXTNAMES
290
     1
  9
$PSVPSCALE
 40
0.0
  9
$OLESTARTUP
290
     0
  0
ENDSEC
  0
SECTION
  2
CLASSES
  0
CLASS
  1
ACDBDICTIONARYWDFLT
  2
AcDbDictionaryWithDefault
  3
ObjectDBX Classes
 90
        0
280
     0
281
     0
  0
CLASS
  1
VISUALSTYLE
  2
AcDbVisualStyle
  3
ObjectDBX Classes
 90
     4095
280
     0
281
     0
  0
CLASS
  1
MATERIAL
  2
AcDbMaterial
  3
ObjectDBX Classes
 90
     1153
280
     0
281
     0
  0
CLASS
  1
SCALE
  2
AcDbScale
  3
ObjectDBX Classes
 90
     1153
280
     0
281
     0
  0
CLASS
  1
TABLESTYLE
  2
AcDbTableStyle
  3
ObjectDBX Classes
 90
     4095
280
     0
281
     0
  0
CLASS
  1
MLEADERSTYLE
  2
AcDbMLeaderStyle
  3
ACDB_MLEADERSTYLE_CLASS
 90
     4095
280
     0
281
     0
  0
CLASS
  1
SUN
  2
AcDbSun
  3
SCENEOE
 90
     1153
280
     0
281
     0
  0
CLASS
  1
ACDBPLACEHOLDER
  2
AcDbPlaceHolder
  3
ObjectDBX Classes
 90
        0
280
     0
281
     0
  0
CLASS
  1
LAYOUT
  2
AcDbLayout
  3
ObjectDBX Classes
 90
        0
280
     0
281
     0
  0
ENDSEC
  0
SECTION
  2
TABLES
  0
TABLE
  2
VPORT
  5
8
330
0
100
AcDbSymbolTable
 70
     1
  0
VPORT
  5
29
330
8
100
AcDbSymbolTableRecord
100
AcDbViewportTableRecord
  2
*Active
 70
     0
 10
0.0
 20
0.0
 11
1.0
 21
1.0
 12
139.7
 22
107.95
 13
0.0
 23
0.0
 14
10.0
 24
10.0
 15
10.0
 25
10.0
 16
0.0
 26
0.0
 36
1.0
 17
0.0
 27
0.0
 37
0.0
 40
215.9
 41
1.2941176471
 42
50.0
 43
0.0
 44
0.0
 50
0.0
 51
0.0
 71
     0
 72
  2000
 73
     1
 74
     3
 75
     0
 76
     0
 77
     0
 78
     0
281
     0
 65
     1
110
0.0
120
0.0
130
0.0
111
1.0
121
0.0
131
0.0
112
0.0
122
1.0
132
0.0
 79
     0
146
0.0
  0
ENDTAB
  0
TABLE
  2
LTYPE
  5
5
330
0
100
AcDbSymbolTable
 70
     6
  0
LTYPE
  5
14
330
5
100
AcDbSymbolTableRecord
100
AcDbLinetypeTableRecord
  2
ByBlock
 70
     0
  3

 72
    65
 73
     0
 40
0.0
  0
LTYPE
  5
15
330
5
100
AcDbSymbolTableRecord
100
AcDbLinetypeTableRecord
  2
ByLayer
 70
     0
  3

 72
    65
 73
     0
 40
0.0
  0
LTYPE
  5
16
330
5
100
AcDbSymbolTableRecord
100
AcDbLinetypeTableRecord
  2
Continuous
 70
     0
  3
Solid line
 72
    65
 73
     0
 40
0.0
  0
LTYPE
  5
6E
330
5
100
AcDbSymbolTableRecord
100
AcDbLinetypeTableRecord
  2
HIDDEN
 70
     0
  3
Hidden __ __ __ __ __ __ __ __ __ __ __ __ __ __
 72
    65
 73
     2
 40
1.905
 49
1.27
 74
     0
 49
-0.635
 74
     0
  0
LTYPE
  5
6F
330
5
100
AcDbSymbolTableRecord
100
AcDbLinetypeTableRecord
  2
PHANTOM
 70
     0
  3
Phantom ______  __  __  ______  __  __  ______
 72
    65
 73
     6
 40
12.7
 49
6.35
 74
     0
 49
-1.27
 74
     0
 49
1.27
 74
     0
 49
-1.27
 74
     0
 49
1.27
 74
     0
 49
-1.27
 74
     0
  0
LTYPE
  5
70
330
5
100
AcDbSymbolTableRecord
100
AcDbLinetypeTableRecord
  2
CENTER
 70
     0
  3
Center ____ _ ____ _ ____ _ ____ _ ____ _ ____
 72
    65
 73
     4
 40
10.16
 49
6.35
 74
     0
 49
-1.27
 74
     0
 49
1.27
 74
     0
 49
-1.27
 74
     0
  0
LTYPE
  5
71
330
5
100
AcDbSymbolTableRecord
100
AcDbLinetypeTableRecord
  2
CENTERX2
 70
     0
  3
Center (2x) ________  __  ________  __  _____
 72
    65
 73
     4
 40
20.32
 49
12.7
 74
     0
 49
-2.54
 74
     0
 49
2.54
 74
     0
 49
-2.54
 74
     0
  0
LTYPE
  5
72
330
5
100
AcDbSymbolTableRecord
100
AcDbLinetypeTableRecord
  2
DOT2
 70
     0
  3
Dot (.5x) ........................................
 72
    65
 73
     2
 40
0.635
 49
0.0
 74
     0
 49
-0.635
 74
     0
  0
ENDTAB
  0
TABLE
  2
LAYER
  5
2
330
0
100
AcDbSymbolTable
 70
    17
  0
LAYER
  5
10
330
2
100
AcDbSymbolTableRecord
100
AcDbLayerTableRecord
  2
0
 70
     0
 62
     7
  6
Continuous
370
    -3
390
F
  0
LAYER
  5
73
330
2
100
AcDbSymbolTableRecord
100
AcDbLayerTableRecord
  2
FORMAT
 70
     0
 62
     7
  6
Continuous
370
    -3
390
F
  0
LAYER
  5
74
330
2
100
AcDbSymbolTableRecord
100
AcDbLayerTableRecord
  2
YARDIMCI_GEOMETRI
 70
     0
 62
    -6
  6
Continuous
290
     0
370
    -3
390
F
  0
LAYER
  5
75
330
2
100
AcDbSymbolTableRecord
100
AcDbLayerTableRecord
  2
SAYFA_CERCEVESI
 70
     0
 62
     7
  6
Continuous
370
    25
390
F
  0
LAYER
  5
76
330
2
100
AcDbSymbolTableRecord
100
AcDbLayerTableRecord
  2
ANTET
 70
     0
 62
     7
  6
Continuous
370
    -3
390
F
  0
LAYER
  5
77
330
2
100
AcDbSymbolTableRecord
100
AcDbLayerTableRecord
  2
OLCU
 70
     0
 62
   150
  6
Continuous
370
    -3
390
F
  0
LAYER
  5
78
330
2
100
AcDbSymbolTableRecord
100
AcDbLayerTableRecord
  2
METIN
 70
     0
 62
    96
  6
Continuous
370
    -3
390
F
  0
LAYER
  5
79
330
2
100
AcDbSymbolTableRecord
100
AcDbLayerTableRecord
  2
BALON
 70
     0
 62
     5
  6
Continuous
370
    -3
390
F
  0
LAYER
  5
7A
330
2
100
AcDbSymbolTableRecord
100
AcDbLayerTableRecord
  2
VURGU
 70
     0
 62
     7
  6
Continuous
370
    -3
390
F
  0
LAYER
  5
7B
330
2
100
AcDbSymbolTableRecord
100
AcDbLayerTableRecord
  2
SILIK
 70
     0
 62
     7
  6
Continuous
370
    -3
390
F
  0
LAYER
  5
7C
330
2
100
AcDbSymbolTableRecord
100
AcDbLayerTableRecord
  2
MODEL
 70
     0
 62
     7
  6
Continuous
370
    -3
390
F
  0
LAYER
  5
7D
330
2
100
AcDbSymbolTableRecord
100
AcDbLayerTableRecord
  2
DETAYLANDıRMA
 70
     0
 62
   190
  6
Continuous
370
    -3
390
F
  0
LAYER
  5
7E
330
2
100
AcDbSymbolTableRecord
100
AcDbLayerTableRecord
  2
TOLERANS
 70
     0
 62
   230
  6
Continuous
370
    -3
390
F
  0
LAYER
  5
7F
330
2
100
AcDbSymbolTableRecord
100
AcDbLayerTableRecord
  2
MERKEZ_CIZGILERI
 70
     0
 62
    30
  6
Continuous
370
    -3
390
F
  0
LAYER
  5
80
330
2
100
AcDbSymbolTableRecord
100
AcDbLayerTableRecord
  2
KESIT-DETAY_CIZGILERI
 70
     0
 62
     7
  6
Continuous
370
    -3
390
F
  0
LAYER
  5
81
330
2
100
AcDbSymbolTableRecord
100
AcDbLayerTableRecord
  2
\U+041E\U+0421\U+0415\U+0412\U+042B\U+0415
 70
     0
 62
     7
  6
Continuous
370
    -3
390
F
  0
LAYER
  5
82
330
2
100
AcDbSymbolTableRecord
100
AcDbLayerTableRecord
  2
\U+0412\U+041E\U+0414\U+042F\U+041D\U+042B\U+0415_\U+0417\U+041D\U+0410\U+041A\U+0418
 70
     0
 62
    11
  6
Continuous
370
    -3
390
F
  0
ENDTAB
  0
TABLE
  2
STYLE
  5
3
330
0
100
AcDbSymbolTable
 70
     1
  0
STYLE
  5
11
330
3
100
AcDbSymbolTableRecord
100
AcDbTextStyleTableRecord
  2
Standard
 70
     0
 40
0.0
 41
1.0
 50
0.0
 71
     0
 42
3.5
  3
txt
  4

  0
ENDTAB
  0
TABLE
  2
VIEW
  5
6
330
0
100
AcDbSymbolTable
 70
     0
  0
ENDTAB
  0
TABLE
  2
UCS
  5
7
330
0
100
AcDbSymbolTable
 70
     0
  0
ENDTAB
  0
TABLE
  2
APPID
  5
9
330
0
100
AcDbSymbolTable
 70
     1
  0
APPID
  5
12
330
9
100
AcDbSymbolTableRecord
100
AcDbRegAppTableRecord
  2
ACAD
 70
     0
  0
ENDTAB
  0
TABLE
  2
DIMSTYLE
  5
A
330
0
100
AcDbSymbolTable
 70
     1
100
AcDbDimStyleTable
  0
DIMSTYLE
105
27
330
A
100
AcDbSymbolTableRecord
100
AcDbDimStyleTableRecord
  2
ISO-25
 70
     0
 41
2.5
 42
0.625
 43
3.75
 44
1.25
 73
     0
 74
     0
 77
     1
 78
     8
140
2.5
141
2.5
143
0.0393700787
147
0.625
171
     3
172
     1
178
     0
271
     2
272
     2
274
     3
278
    44
283
     0
284
     8
340
11
  0
ENDTAB
  0
TABLE
  2
BLOCK_RECORD
  5
1
330
0
100
AcDbSymbolTable
 70
     3
  0
BLOCK_RECORD
  5
1F
330
1
100
AcDbSymbolTableRecord
100
AcDbBlockTableRecord
  2
*Model_Space
340
22
  0
BLOCK_RECORD
  5
1B
330
1
100
AcDbSymbolTableRecord
100
AcDbBlockTableRecord
  2
*Paper_Space
340
1E
  0
BLOCK_RECORD
  5
23
330
1
100
AcDbSymbolTableRecord
100
AcDbBlockTableRecord
  2
*Paper_Space0
340
26
  0
BLOCK_RECORD
  5
88
330
1
100
AcDbSymbolTableRecord
100
AcDbBlockTableRecord
  2
SW_CENTERMARKSYMBOL_0
340
0
102
{BLKREFS
331
93
102
}
  0
BLOCK_RECORD
  5
B2
330
1
100
AcDbSymbolTableRecord
100
AcDbBlockTableRecord
  2
SW_CENTERMARKSYMBOL_1
340
0
102
{BLKREFS
331
BD
102
}
  0
ENDTAB
  0
ENDSEC
  0
SECTION
  2
BLOCKS
  0
BLOCK
  5
20
330
1F
100
AcDbEntity
  8
0
100
AcDbBlockBegin
  2
*Model_Space
 70
     0
 10
0.0
 20
0.0
 30
0.0
  3
*Model_Space
  1

  0
ENDBLK
  5
21
330
1F
100
AcDbEntity
  8
0
100
AcDbBlockEnd
  0
BLOCK
  5
1C
330
1B
100
AcDbEntity
 67
     1
  8
0
100
AcDbBlockBegin
  2
*Paper_Space
 70
     0
 10
0.0
 20
0.0
 30
0.0
  3
*Paper_Space
  1

  0
ENDBLK
  5
1D
330
1B
100
AcDbEntity
 67
     1
  8
0
100
AcDbBlockEnd
  0
BLOCK
  5
24
330
23
100
AcDbEntity
  8
0
100
AcDbBlockBegin
  2
*Paper_Space0
 70
     0
 10
0.0
 20
0.0
 30
0.0
  3
*Paper_Space0
  1

  0
ENDBLK
  5
25
330
23
100
AcDbEntity
  8
0
100
AcDbBlockEnd
  0
BLOCK
  5
89
330
88
100
AcDbEntity
  8
0
100
AcDbBlockBegin
  2
SW_CENTERMARKSYMBOL_0
 70
     0
 10
0.0
 20
0.0
 30
0.0
  3
SW_CENTERMARKSYMBOL_0
  1

  0
LINE
  5
8B
330
88
100
AcDbEntity
  8
FORMAT
 62
     0
100
AcDbLine
 10
0.0
 20
0.0
 30
0.0
 11
0.0
 21
2.5
 31
0.0
  0
LINE
  5
8C
330
88
100
AcDbEntity
  8
FORMAT
 62
     0
100
AcDbLine
 10
0.0
 20
0.0
 30
0.0
 11
-2.5
 21
0.0
 31
0.0
  0
LINE
  5
8D
330
88
100
AcDbEntity
  8
FORMAT
 62
     0
100
AcDbLine
 10
0.0
 20
0.0
 30
0.0
 11
0.0
 21
-2.5
 31
0.0
  0
LINE
  5
8E
330
88
100
AcDbEntity
  8
FORMAT
 62
     0
100
AcDbLine
 10
0.0
 20
0.0
 30
0.0
 11
2.5
 21
0.0
 31
0.0
  0
LINE
  5
8F
330
88
100
AcDbEntity
  8
FORMAT
 62
     0
100
AcDbLine
 10
0.0
 20
5.0
 30
0.0
 11
0.0
 21
65.0
 31
0.0
  0
LINE
  5
90
330
88
100
AcDbEntity
  8
FORMAT
 62
     0
100
AcDbLine
 10
-5.0
 20
0.0
 30
0.0
 11
-65.0
 21
0.0
 31
0.0
  0
LINE
  5
91
330
88
100
AcDbEntity
  8
FORMAT
 62
     0
100
AcDbLine
 10
0.0
 20
-5.0
 30
0.0
 11
0.0
 21
-65.0
 31
0.0
  0
LINE
  5
92
330
88
100
AcDbEntity
  8
FORMAT
 62
     0
100
AcDbLine
 10
5.0
 20
0.0
 30
0.0
 11
65.0
 21
0.0
 31
0.0
  0
ENDBLK
  5
8A
330
88
100
AcDbEntity
  8
0
100
AcDbBlockEnd
  0
BLOCK
  5
B3
330
B2
100
AcDbEntity
  8
0
100
AcDbBlockBegin
  2
SW_CENTERMARKSYMBOL_1
 70
     0
 10
0.0
 20
0.0
 30
0.0
  3
SW_CENTERMARKSYMBOL_1
  1

  0
LINE
  5
B5
330
B2
100
AcDbEntity
  8
FORMAT
 62
     0
100
AcDbLine
 10
0.0
 20
0.0
 30
0.0
 11
0.0
 21
2.5
 31
0.0
  0
LINE
  5
B6
330
B2
100
AcDbEntity
  8
FORMAT
 62
     0
100
AcDbLine
 10
0.0
 20
0.0
 30
0.0
 11
-2.5
 21
0.0
 31
0.0
  0
LINE
  5
B7
330
B2
100
AcDbEntity
  8
FORMAT
 62
     0
100
AcDbLine
 10
0.0
 20
0.0
 30
0.0
 11
0.0
 21
-2.5
 31
0.0
  0
LINE
  5
B8
330
B2
100
AcDbEntity
  8
FORMAT
 62
     0
100
AcDbLine
 10
0.0
 20
0.0
 30
0.0
 11
2.5
 21
0.0
 31
0.0
  0
LINE
  5
B9
330
B2
100
AcDbEntity
  8
FORMAT
 62
     0
100
AcDbLine
 10
0.0
 20
5.0
 30
0.0
 11
0.0
 21
57.5
 31
0.0
  0
LINE
  5
BA
330
B2
100
AcDbEntity
  8
FORMAT
 62
     0
100
AcDbLine
 10
-5.0
 20
0.0
 30
0.0
 11
-57.5
 21
0.0
 31
0.0
  0
LINE
  5
BB
330
B2
100
AcDbEntity
  8
FORMAT
 62
     0
100
AcDbLine
 10
0.0
 20
-5.0
 30
0.0
 11
0.0
 21
-57.5
 31
0.0
  0
LINE
  5
BC
330
B2
100
AcDbEntity
  8
FORMAT
 62
     0
100
AcDbLine
 10
5.0
 20
0.0
 30
0.0
 11
57.5
 21
0.0
 31
0.0
  0
ENDBLK
  5
B4
330
B2
100
AcDbEntity
  8
0
100
AcDbBlockEnd
  0
ENDSEC
  0
SECTION
  2
ENTITIES
  0
LINE
  5
83
330
1F
100
AcDbEntity
  8
0
  6
Continuous
 62
     7
370
    25
100
AcDbLine
 10
114.6139863594
 20
48.8820774185
 30
0.0
 11
260.8795737215
 21
48.8820774185
 31
0.0
  0
LINE
  5
84
330
1F
100
AcDbEntity
  8
0
  6
Continuous
 62
     7
370
    25
100
AcDbLine
 10
260.8795737215
 20
158.8820774185
 30
0.0
 11
114.6698496309
 21
158.8820774185
 31
0.0
  0
CIRCLE
  5
85
330
1F
100
AcDbEntity
  8
0
  6
Continuous
 62
     7
370
    25
100
AcDbCircle
 10
84.8795737215
 20
103.8820774185
 30
0.0
 40
51.09999999999999
  0
CIRCLE
  5
86
330
1F
100
AcDbEntity
  8
0
  6
Continuous
 62
     7
370
    25
100
AcDbCircle
 10
84.8795737215
 20
103.8820774185
 30
0.0
 40
62.5
  0
LINE
  5
87
330
1F
100
AcDbEntity
  8
0
  6
Continuous
 62
     7
370
    25
100
AcDbLine
 10
260.8795737215
 20
158.8820774185
 30
0.0
 11
260.8795737215
 21
48.8820774185
 31
0.0
  0
INSERT
  5
93
330
1F
100
AcDbEntity
  8
FORMAT
100
AcDbBlockReference
  2
SW_CENTERMARKSYMBOL_0
 10
84.8795737215
 20
103.8820774185
 30
0.0
  0
LINE
  5
94
330
1F
100
AcDbEntity
  8
0
  6
Continuous
 62
     7
370
    25
100
AcDbLine
 10
22.3795737215
 20
-29.5677957804
 30
0.0
 11
22.3795737215
 21
-385.5677957804
 31
0.0
  0
LINE
  5
95
330
1F
100
AcDbEntity
  8
0
  6
Continuous
 62
     7
370
    25
100
AcDbLine
 10
147.3795737215
 20
-152.6032162045
 30
0.0
 11
147.3795737215
 21
-29.5677957804
 31
0.0
  0
LINE
  5
96
330
1F
100
AcDbEntity
  8
0
  6
Continuous
 62
     7
370
    25
100
AcDbLine
 10
147.3795737215
 20
-385.5677957804
 30
0.0
 11
147.3795737215
 21
-262.5677957804
 31
0.0
  0
LINE
  5
97
330
1F
100
AcDbEntity
  8
0
  6
Continuous
 62
     7
370
    25
100
AcDbLine
 10
147.3795737215
 20
-262.5677957804
 30
0.0
 11
260.8795737215
 21
-262.5677957804
 31
0.0
  0
LINE
  5
98
330
1F
100
AcDbEntity
  8
0
  6
Continuous
 62
     7
370
    25
100
AcDbLine
 10
260.8795737215
 20
-152.5677957804
 30
0.0
 11
147.3483874067
 21
-152.5677957804
 31
0.0
  0
SPLINE
  5
99
330
1F
100
AcDbEntity
  8
0
  6
Continuous
 62
     7
370
    25
100
AcDbSpline
210
0.0
220
0.0
230
1.0
 70
     8
 71
     3
 72
    42
 73
    38
 74
     0
 42
0.000000001
 43
0.00000001
 40
0.0
 40
0.0
 40
0.0
 40
0.0
 40
0.0100022703080374
 40
0.0310470162866033
 40
0.068054353319022
 40
0.1060299101857428
 40
0.145338646298765
 40
0.1854516024942884
 40
0.2151849134424449
 40
0.2449237422900255
 40
0.2755054376978813
 40
0.306089608448909
 40
0.3364491641450462
 40
0.3668046878891573
 40
0.3981416648137936
 40
0.4294472288291989
 40
0.4558128304654745
 40
0.4827789171312571
 40
0.5092029631360432
 40
0.5365936064973913
 40
0.5530394828156876
 40
0.5694916128893702
 40
0.6032494727428844
 40
0.6325019212030341
 40
0.6617645892492048
 40
0.6917869033188747
 40
0.7218094702746038
 40
0.7526765503575518
 40
0.7835391849755389
 40
0.815421978463212
 40
0.8472954002060675
 40
0.8681504013666316
 40
0.8890031269848376
 40
0.9104051915148421
 40
0.9318046828654574
 40
0.9655143718701693
 40
1.0
 40
1.0
 40
1.0
 40
1.0
 10
147.3483873872385
 20
-152.6032162044596
 30
0.0
 10
147.3546925430842
 20
-152.5960410986299
 30
0.0
 10
147.3742637274456
 20
-152.5737695921926
 30
0.0
 10
147.0748567507814
 20
-152.9141642610438
 30
0.0
 10
146.2163579292917
 20
-153.8916063662367
 30
0.0
 10
144.4527753795672
 20
-155.9132595718477
 30
0.0
 10
142.0132687914013
 20
-158.742311312143
 30
0.0
 10
139.2607634749193
 20
-161.9914215515998
 30
0.0
 10
136.4637057284397
 20
-165.3680383475273
 30
0.0
 10
133.7674831631367
 20
-168.7063071127139
 30
0.0
 10
130.925174518687
 20
-172.3394260860714
 30
0.0
 10
128.0014032973841
 20
-176.2517233073063
 30
0.0
 10
125.0787623926795
 20
-180.3977273032152
 30
0.0
 10
122.211626512932
 20
-184.8373216478087
 30
0.0
 10
119.4870461598538
 20
-189.602697467568
 30
0.0
 10
117.2177269454979
 20
-194.4824866102129
 30
0.0
 10
115.5486758781273
 20
-199.4151973243787
 30
0.0
 10
114.606425433838
 20
-204.3003449754111
 30
0.0
 10
114.475783467998
 20
-209.368583202774
 30
0.0
 10
115.1117363735455
 20
-213.7193257431647
 30
0.0
 10
116.0848589867434
 20
-217.3154766971621
 30
0.0
 10
117.4479144937747
 20
-221.1668147571988
 30
0.0
 10
119.4867950632236
 20
-225.5202733634014
 30
0.0
 10
122.1820259226127
 20
-230.2488901812106
 30
0.0
 10
124.9406401186834
 20
-234.5252444478619
 30
0.0
 10
127.7925960983654
 20
-238.5990947959018
 30
0.0
 10
130.7020558011363
 20
-242.5019541083508
 30
0.0
 10
133.576281857607
 20
-246.191390797925
 30
0.0
 10
136.3900194220551
 20
-249.6781758017459
 30
0.0
 10
139.0485523182198
 20
-252.8889330100199
 30
0.0
 10
141.2035560976252
 20
-255.4381865186192
 30
0.0
 10
142.8703488311964
 20
-257.3864494823927
 30
0.0
 10
144.1411372097766
 20
-258.8594815913348
 30
0.0
 10
145.2399216340249
 20
-260.1247465533476
 30
0.0
 10
146.3065321484465
 20
-261.3463430323116
 30
0.0
 10
147.1879011997027
 20
-262.3501604720083
 30
0.0
 10
147.315200070772
 20
-262.4947024689601
 30
0.0
 10
147.3795737215372
 20
-262.5677957804288
 30
0.0
  0
LINE
  5
9A
330
1F
100
AcDbEntity
  8
0
  6
Continuous
 62
     7
370
    25
100
AcDbLine
 10
147.3795737215
 20
-385.5677957804
 30
0.0
 11
22.3795737215
 21
-385.5677957804
 31
0.0
  0
LINE
  5
9B
330
1F
100
AcDbEntity
  8
0
  6
Continuous
 62
     7
370
    25
100
AcDbLine
 10
147.3795737215
 20
-29.5677957804
 30
0.0
 11
22.3795737215
 21
-29.5677957804
 31
0.0
  0
LINE
  5
9C
330
1F
100
AcDbEntity
  8
0
  6
Continuous
 62
     7
370
    25
100
AcDbLine
 10
260.8795737215
 20
-152.5677957804
 30
0.0
 11
260.8795737215
 21
-262.5677957804
 31
0.0
  0
LINE
  5
9D
330
1F
100
AcDbEntity
  8
0
  6
Continuous
 62
     7
370
    25
100
AcDbLine
 10
147.3795737215
 20
442.0956737156
 30
0.0
 11
147.3795737215
 21
565.0956737156
 31
0.0
  0
LINE
  5
9E
330
1F
100
AcDbEntity
  8
0
  6
Continuous
 62
     7
370
    25
100
AcDbLine
 10
147.3795737215
 20
209.0956737156
 30
0.0
 11
147.3795737215
 21
332.1305201407
 31
0.0
  0
LINE
  5
9F
330
1F
100
AcDbEntity
  8
0
  6
Continuous
 62
     7
370
    25
100
AcDbLine
 10
22.3795737215
 20
565.0956737156
 30
0.0
 11
22.3795737215
 21
209.0956737156
 31
0.0
  0
LINE
  5
A0
330
1F
100
AcDbEntity
  8
0
  6
Continuous
 62
     7
370
    25
100
AcDbLine
 10
147.3489111117
 20
332.0956737156
 30
0.0
 11
260.8795737215
 21
332.0956737156
 31
0.0
  0
LINE
  5
A1
330
1F
100
AcDbEntity
  8
0
  6
Continuous
 62
     7
370
    25
100
AcDbLine
 10
260.8795737215
 20
442.0956737156
 30
0.0
 11
147.3795737215
 21
442.0956737156
 31
0.0
  0
SPLINE
  5
A2
330
1F
100
AcDbEntity
  8
0
  6
Continuous
 62
     7
370
    25
100
AcDbSpline
210
0.0
220
0.0
230
1.0
 70
     8
 71
     3
 72
    46
 73
    42
 74
     0
 42
0.000000001
 43
0.00000001
 40
0.0
 40
0.0
 40
0.0
 40
0.0
 40
0.0201589038462828
 40
0.0404867415493755
 40
0.0613342304972891
 40
0.082352672138569
 40
0.1025074510159542
 40
0.1227924596936325
 40
0.1641931558491801
 40
0.192163871826439
 40
0.2203508681838848
 40
0.2491389548580466
 40
0.2781045208079833
 40
0.3068046465429586
 40
0.3356560560965658
 40
0.3649990329809975
 40
0.3945415891089198
 40
0.4240081996262807
 40
0.4539412452048916
 40
0.4785506468190168
 40
0.5038373366989211
 40
0.5284689887183983
 40
0.5537866178458812
 40
0.5731866707722362
 40
0.5927454951062572
 40
0.6326667257957092
 40
0.6648204405114493
 40
0.6972051322968507
 40
0.7302743030282607
 40
0.7635861419307496
 40
0.7888077610427857
 40
0.8141656900583285
 40
0.8400039713031605
 40
0.8660362556462566
 40
0.886269902094563
 40
0.9066239161138212
 40
0.9273898269478952
 40
0.9483137915862054
 40
0.9685533811784006
 40
0.9889592741942809
 40
1.0
 40
1.0
 40
1.0
 40
1.0
 10
147.3795737215372
 20
442.0956737156241
 30
0.0
 10
147.3575795111871
 20
442.0706869274383
 30
0.0
 10
147.3134067765574
 20
442.0205039590022
 30
0.0
 10
146.9544571320704
 20
441.6122952516378
 30
0.0
 10
146.3780862708322
 20
440.9553517854548
 30
0.0
 10
145.5790723988583
 20
440.0415250656676
 30
0.0
 10
144.5905104037728
 20
438.9056112048679
 30
0.0
 10
143.0381770243935
 20
437.1113905567767
 30
0.0
 10
140.9811427416658
 20
434.7092520393628
 30
0.0
 10
138.4154538148467
 20
431.6560344878901
 30
0.0
 10
135.9947786125872
 20
428.7198643068853
 30
0.0
 10
133.4006654578627
 20
425.4942945347593
 30
0.0
 10
130.6895898489652
 20
422.0113827038914
 30
0.0
 10
127.9233523686762
 20
418.3014198434661
 30
0.0
 10
125.1446550391193
 20
414.3538062103963
 30
0.0
 10
122.4043701080279
 20
410.1347772575984
 30
0.0
 10
119.8020260446809
 20
405.6288120655225
 30
0.0
 10
117.473150273489
 20
400.8032057487804
 30
0.0
 10
115.7354140455483
 20
395.9402102876515
 30
0.0
 10
114.7129435107792
 20
391.0774413297042
 30
0.0
 10
114.4485469096127
 20
386.4107270560074
 30
0.0
 10
114.933308118234
 20
381.7252162992523
 30
0.0
 10
115.9872683748187
 20
377.5520205137316
 30
0.0
 10
117.3380528255374
 20
373.8549992284017
 30
0.0
 10
119.296117253043
 20
369.5027390923972
 30
0.0
 10
121.9519583225647
 20
364.7563808031262
 30
0.0
 10
125.2122666444775
 20
359.7254524949805
 30
0.0
 10
128.338691881076
 20
355.3105940812737
 30
0.0
 10
131.4907463405322
 20
351.1294885967794
 30
0.0
 10
134.3321389161943
 20
347.5281146054365
 30
0.0
 10
136.813587926591
 20
344.4733749628672
 30
0.0
 10
138.9478522176043
 20
341.8989831312231
 30
0.0
 10
140.9418004007719
 20
339.533136152325
 30
0.0
 10
142.6154875747608
 20
337.5734393859859
 30
0.0
 10
143.9771008200902
 20
335.993625553357
 30
0.0
 10
145.0639277185065
 20
334.740990267489
 30
0.0
 10
145.9720042808756
 20
333.6999568432547
 30
0.0
 10
146.671723225209
 20
332.9010984408844
 30
0.0
 10
147.1347296855246
 20
332.3739507741168
 30
0.0
 10
147.3693738500633
 20
332.1072627174932
 30
0.0
 10
147.3542285226589
 20
332.124476486189
 30
0.0
 10
147.3489110858922
 20
332.1305201407177
 30
0.0
  0
LINE
  5
A3
330
1F
100
AcDbEntity
  8
0
  6
Continuous
 62
     7
370
    25
100
AcDbLine
 10
22.3795737215
 20
565.0956737156
 30
0.0
 11
147.3795737215
 21
565.0956737156
 31
0.0
  0
LINE
  5
A4
330
1F
100
AcDbEntity
  8
0
  6
Continuous
 62
     7
370
    25
100
AcDbLine
 10
22.3795737215
 20
209.0956737156
 30
0.0
 11
147.3795737215
 21
209.0956737156
 31
0.0
  0
LINE
  5
A5
330
1F
100
AcDbEntity
  8
0
  6
Continuous
 62
     7
370
    25
100
AcDbLine
 10
260.8795737215
 20
442.0956737156
 30
0.0
 11
260.8795737215
 21
332.0956737156
 31
0.0
  0
LINE
  5
A6
330
1F
100
AcDbEntity
  8
0
  6
Continuous
 62
     7
370
    25
100
AcDbLine
 10
324.5407769528
 20
41.3820774185
 30
0.0
 11
680.5407769528
 21
41.3820774185
 31
0.0
  0
LINE
  5
A7
330
1F
100
AcDbEntity
  8
0
  6
Continuous
 62
     7
370
    25
100
AcDbLine
 10
680.5407769528
 20
166.3820774185
 30
0.0
 11
324.5407769528
 21
166.3820774185
 31
0.0
  0
LINE
  5
A8
330
1F
100
AcDbEntity
  8
0
  6
Continuous
 62
     7
370
    25
100
AcDbLine
 10
680.5407769528
 20
166.3820774185
 30
0.0
 11
680.5407769528
 21
41.3820774185
 31
0.0
  0
LINE
  5
A9
330
1F
100
AcDbEntity
  8
0
  6
Continuous
 62
     7
370
    25
100
AcDbLine
 10
324.5407769528
 20
166.3820774185
 30
0.0
 11
324.5407769528
 21
41.3820774185
 31
0.0
  0
LINE
  5
AA
330
1F
100
AcDbEntity
  8
0
  6
Continuous
 62
     7
370
    25
100
AcDbLine
 10
-34.6312371611
 20
166.3820774185
 30
0.0
 11
-390.6312371611
 21
166.3820774185
 31
0.0
  0
LINE
  5
AB
330
1F
100
AcDbEntity
  8
0
  6
Continuous
 62
     7
370
    25
100
AcDbLine
 10
-390.6312371611
 20
41.3820774185
 30
0.0
 11
-34.6312371611
 21
41.3820774185
 31
0.0
  0
CIRCLE
  5
AC
330
1F
100
AcDbEntity
  8
0
  6
Continuous
 62
     7
370
    25
100
AcDbCircle
 10
-212.6312371611
 20
103.8820774185
 30
0.0
 40
45.00000000000003
  0
CIRCLE
  5
AD
330
1F
100
AcDbEntity
  8
0
  6
Continuous
 62
     7
370
    25
100
AcDbCircle
 10
-212.6312371611
 20
103.8820774185
 30
0.0
 40
55.00000000000003
  0
LINE
  5
AE
330
1F
100
AcDbEntity
  8
0
  6
Continuous
 62
     7
370
    25
100
AcDbLine
 10
-390.6312371611
 20
103.8820774185
 30
0.0
 11
-390.6312371611
 21
166.3820774185
 31
0.0
  0
LINE
  5
AF
330
1F
100
AcDbEntity
  8
0
  6
Continuous
 62
     7
370
    25
100
AcDbLine
 10
-390.6312371611
 20
41.3820774185
 30
0.0
 11
-390.6312371611
 21
103.8820774185
 31
0.0
  0
LINE
  5
B0
330
1F
100
AcDbEntity
  8
0
  6
Continuous
 62
     7
370
    25
100
AcDbLine
 10
-34.6312371611
 20
103.8820774185
 30
0.0
 11
-34.6312371611
 21
166.3820774185
 31
0.0
  0
LINE
  5
B1
330
1F
100
AcDbEntity
  8
0
  6
Continuous
 62
     7
370
    25
100
AcDbLine
 10
-34.6312371611
 20
41.3820774185
 30
0.0
 11
-34.6312371611
 21
103.8820774185
 31
0.0
  0
INSERT
  5
BD
330
1F
100
AcDbEntity
  8
FORMAT
100
AcDbBlockReference
  2
SW_CENTERMARKSYMBOL_1
 10
-212.6312371611
 20
103.8820774185
 30
0.0
  0
LINE
  5
BE
330
1F
100
AcDbEntity
  8
0
  6
Continuous
 62
     7
370
    25
100
AcDbLine
 10
494.3538547978
 20
-106.7850261735
 30
0.0
 11
392.2356985867
 21
-47.833469412
 31
0.0
  0
LINE
  5
BF
330
1F
100
AcDbEntity
  8
0
  6
Continuous
 62
     7
370
    25
100
AcDbLine
 10
643.9657126892
 20
-193.1541133165
 30
0.0
 11
604.3627949344
 21
-170.2918355339
 31
0.0
  0
LINE
  5
C0
330
1F
100
AcDbEntity
  8
0
  6
Continuous
 62
     7
370
    25
100
AcDbLine
 10
329.740777797
 20
-156.0895772096
 30
0.0
 11
581.4707918994
 21
-301.410221114
 31
0.0
  0
LINE
  5
C1
330
1F
100
AcDbEntity
  8
0
  6
Continuous
 62
     7
370
    25
100
AcDbLine
 10
548.9337061457
 20
-202.2903673838
 30
0.0
 11
638.8018038794
 21
-150.4106188536
 31
0.0
  0
LINE
  5
C2
330
1F
100
AcDbEntity
  8
0
  6
Continuous
 62
     7
370
    25
100
AcDbLine
 10
583.8062735844
 20
-55.1452439917
 30
0.0
 11
493.944178398
 21
-107.0215273251
 31
0.0
  0
SPLINE
  5
C3
330
1F
100
AcDbEntity
  8
0
  6
Continuous
 62
     7
370
    25
100
AcDbSpline
210
0.0
220
0.0
230
1.0
 70
     8
 71
     3
 72
    35
 73
    31
 74
     0
 42
0.000000001
 43
0.00000001
 40
0.0
 40
0.0
 40
0.0
 40
0.0
 40
0.0266900749995599
 40
0.0536038157967546
 40
0.0812055667557936
 40
0.109033656420653
 40
0.1357182700255812
 40
0.1625753058595901
 40
0.2173891833328593
 40
0.2544219760341395
 40
0.2917411205932458
 40
0.3298560993781112
 40
0.3682060579623457
 40
0.4062045778324893
 40
0.4444033951243724
 40
0.4832530399129826
 40
0.5223669245143199
 40
0.561380258309064
 40
0.6010111448667023
 40
0.6335936096566422
 40
0.6670727935711837
 40
0.6996847175515709
 40
0.7332048645484606
 40
0.7588902327385233
 40
0.7980385403610121
 40
0.837648242925683
 40
0.880219260865024
 40
0.9230960888503601
 40
0.9668791563090273
 40
1.0
 40
1.0
 40
1.0
 40
1.0
 10
492.1565461019667
 20
-126.6578686934435
 30
0.0
 10
492.1586621740475
 20
-127.7044426629935
 30
0.0
 10
492.1629120511286
 20
-129.8063610083845
 30
0.0
 10
492.1977434685242
 20
-133.2192830983313
 30
0.0
 10
492.2547169038585
 20
-136.813410234976
 30
0.0
 10
492.3359018471145
 20
-140.5176492063896
 30
0.0
 10
492.4400953505816
 20
-144.268199715686
 30
0.0
 10
492.6111354785703
 20
-149.3304928349439
 30
0.0
 10
492.8551610231343
 20
-154.9415177887959
 30
0.0
 10
493.1998958196461
 20
-160.9972643572939
 30
0.0
 10
493.5644058147957
 20
-166.2039853813328
 30
0.0
 10
494.0109130709425
 20
-171.3701029810242
 30
0.0
 10
494.5566836976246
 20
-176.4379995184035
 30
0.0
 10
495.223998312898
 20
-181.358358870927
 30
0.0
 10
496.0505469600062
 20
-186.1276206301829
 30
0.0
 10
497.0961768768112
 20
-190.7420995870224
 30
0.0
 10
498.4422403180708
 20
-195.1483712909956
 30
0.0
 10
500.2076952964975
 20
-199.2819473059259
 30
0.0
 10
502.4175877246232
 20
-202.8026610607542
 30
0.0
 10
505.1330874268128
 20
-205.6639296698417
 30
0.0
 10
508.2460010267005
 20
-207.7921538761448
 30
0.0
 10
511.9019171896386
 20
-209.2943009918598
 30
0.0
 10
515.5981386032627
 20
-210.0881961942647
 30
0.0
 10
519.7231095183246
 20
-210.4429832639794
 30
0.0
 10
524.2076931106965
 20
-210.3207515560074
 30
0.0
 10
529.4234635475348
 20
-209.6081755666706
 30
0.0
 10
534.7285008677185
 20
-208.3637951376374
 30
0.0
 10
540.0523177371573
 20
-206.5824508737257
 30
0.0
 10
544.8310412580427
 20
-204.5651771506481
 30
0.0
 10
547.681665133071
 20
-202.9446894423537
 30
0.0
 10
548.9093669023978
 20
-202.2467805936721
 30
0.0
  0
SPLINE
  5
C4
330
1F
100
AcDbEntity
  8
0
  6
Continuous
 62
     7
370
    25
100
AcDbSpline
210
0.0
220
0.0
230
1.0
 70
     8
 71
     3
 72
    16
 73
    12
 74
     0
 42
0.000000001
 43
0.00000001
 40
0.0
 40
0.0
 40
0.0
 40
0.0
 40
0.1152901500555163
 40
0.244942364680822
 40
0.375872326266894
 40
0.4608634448164812
 40
0.5463383953580075
 40
0.6334825102974042
 40
0.7212755127320204
 40
0.8590520665863643
 40
0.9999999999999999
 40
0.9999999999999999
 40
0.9999999999999999
 40
0.9999999999999999
 10
493.9540881383506
 20
-107.0378551932356
 30
0.0
 10
493.8036115582831
 20
-107.1585336181441
 30
0.0
 10
493.4839130468919
 20
-107.4149237672488
 30
0.0
 10
493.1121243214461
 20
-108.4440659400736
 30
0.0
 10
492.8311495476901
 20
-109.8636950035152
 30
0.0
 10
492.6320329416788
 20
-111.5049663230084
 30
0.0
 10
492.4890751758863
 20
-113.1812228908178
 30
0.0
 10
492.3712097904097
 20
-115.1616739000272
 30
0.0
 10
492.2615671521199
 20
-117.8957417270318
 30
0.0
 10
492.1749044262246
 20
-121.5891715176591
 30
0.0
 10
492.1627117867665
 20
-124.9555352618923
 30
0.0
 10
492.1565461019667
 20
-126.6578686934435
 30
0.0
  0
LWPOLYLINE
  5
C5
330
1F
100
AcDbEntity
  8
0
  6
Continuous
 62
     7
370
    25
100
AcDbPolyline
 90
       90
 70
   128
 43
0.0
 10
405.182412016
 20
-76.4487698163
 10
405.0723254405
 20
-72.9124502633
 10
404.7426141599
 20
-69.5208517309
 10
404.1949207791
 20
-66.2908709925
 10
403.431973879
 20
-63.2385996497
 10
402.4575744227
 20
-60.3792439647
 10
401.2765768192
 20
-57.7270491038
 10
399.8948647393
 20
-55.2952281684
 10
398.319321803
 20
-53.0958963679
 10
396.5577972859
 20
-51.1400106628
 10
394.6190670147
 20
-49.4373151774
 10
392.5127896459
 20
-47.9962926549
 10
390.2494585475
 20
-46.8241221969
 10
387.8403495212
 20
-45.9266434978
 10
385.297464627
 20
-45.3083277513
 10
382.6334723894
 20
-44.9722553753
 10
379.8616446838
 20
-44.9201006655
 10
376.9957906165
 20
-45.1521234541
 10
374.0501877282
 20
-45.6671678151
 10
371.0395108644
 20
-46.4626678236
 10
367.9787590657
 20
-47.5346603384
 10
364.8831808436
 20
-48.8778047467
 10
361.7681982131
 20
-50.4854095708
 10
358.6493298611
 20
-52.3494658042
 10
355.5421138327
 20
-54.4606868125
 10
352.4620301219
 20
-56.8085545989
 10
349.4244235509
 20
-59.3813722042
 10
346.4444273227
 20
-62.1663219804
 10
343.5368876287
 20
-65.1495294479
 10
340.7162896854
 20
-68.3161324172
 10
337.9966855698
 20
-71.6503550314
 10
335.3916242128
 20
-75.1355863613
 10
332.9140838992
 20
-78.7544631597
 10
330.5764076101
 20
-82.4889563644
 10
328.3902415311
 20
-86.3204609182
 10
326.3664770318
 20
-90.229888458
 10
324.5151964051
 20
-94.1977624126
 10
322.8456226379
 20
-98.2043150334
 10
321.3660734628
 20
-102.2295858768
 10
320.0839199193
 20
-106.2535212461
 10
319.0055496319
 20
-110.2560740975
 10
318.1363349871
 20
-114.2173039141
 10
317.4806063685
 20
-118.1174760482
 10
317.0416305832
 20
-121.9371600385
 10
316.8215945864
 20
-125.6573264114
 10
316.8215945864
 20
-129.2594414852
 10
317.0416305832
 20
-132.7255597038
 10
317.4806063685
 20
-136.0384130405
 10
318.1363349871
 20
-139.1814970267
 10
319.0055496319
 20
-142.1391529761
 10
320.0839199193
 20
-144.8966459955
 10
321.3660734628
 20
-147.4402383934
 10
322.8456226379
 20
-149.7572581204
 10
324.5151964051
 20
-151.8361619008
 10
326.3664770318
 20
-153.6665927405
 10
328.3902415311
 20
-155.2394315251
 10
330.5764076101
 20
-156.546842451
 10
332.9140838992
 20
-157.5823120626
 10
335.3916242128
 20
-158.3406817025
 10
337.9966855698
 20
-158.8181732112
 10
340.7162896854
 20
-159.0124077501
 10
343.5368876287
 20
-158.9224176525
 10
346.4444273227
 20
-158.5486512445
 10
349.4244235509
 20
-157.8929706115
 10
352.4620301219
 20
-156.9586423216
 10
355.5421138327
 20
-155.7503211511
 10
358.6493298611
 20
-154.2740268955
 10
361.7681982131
 20
-152.5371143784
 10
364.8831808436
 20
-150.5482368106
 10
367.9787590657
 20
-148.3173026802
 10
371.0395108644
 20
-145.8554263887
 10
374.0501877282
 20
-143.1748728801
 10
376.9957906165
 20
-140.2889965369
 10
379.8616446838
 20
-137.2121746501
 10
382.6334723894
 20
-133.9597357914
 10
385.297464627
 20
-130.5478834478
 10
387.8403495212
 20
-126.9936152959
 10
390.2494585475
 20
-123.3146385208
 10
392.5127896459
 20
-119.5292815999
 10
394.6190670147
 20
-115.6564029909
 10
396.5577972859
 20
-111.7152971802
 10
398.319321803
 20
-107.7255985586
 10
399.8948647393
 20
-103.7071836042
 10
401.2765768192
 20
-99.680071858
 10
402.4575744227
 20
-95.6643261881
 10
403.431973879
 20
-91.6799528376
 10
404.1949207791
 20
-87.7468017539
 10
404.7426141599
 20
-83.8844676981
 10
405.0723254405
 20
-80.112192624
 10
405.182412016
 20
-76.4487698163
  0
LWPOLYLINE
  5
C6
330
1F
100
AcDbEntity
  8
0
  6
Continuous
 62
     7
370
    25
100
AcDbPolyline
 90
       13
 70
   128
 43
0.0
 10
656.9124261184
 20
-221.7694137208
 10
656.802339543
 20
-218.2330941677
 10
656.4726282623
 20
-214.8414956353
 10
655.9249348815
 20
-211.611514897
 10
655.1619879814
 20
-208.5592435541
 10
654.1875885251
 20
-205.6998878692
 10
653.0065909216
 20
-203.0476930083
 10
651.6248788417
 20
-200.6158720728
 10
650.0493359054
 20
-198.4165402723
 10
648.2878113883
 20
-196.4606545673
 10
646.3490811171
 20
-194.7579590819
 10
644.2428037483
 20
-193.3169365593
 10
643.9657126892
 20
-193.1541133165
  0
LWPOLYLINE
  5
C7
330
1F
100
AcDbEntity
  8
0
  6
Continuous
 62
     7
370
    25
100
AcDbPolyline
 90
       35
 70
   128
 43
0.0
 10
581.4707918994
 20
-301.410221114
 10
582.3064217125
 20
-301.8674863554
 10
584.6440980016
 20
-302.9029559671
 10
587.1216383152
 20
-303.6613256069
 10
589.7266996722
 20
-304.1388171157
 10
592.4463037878
 20
-304.3330516546
 10
595.2669017311
 20
-304.243061557
 10
598.1744414251
 20
-303.8692951489
 10
601.1544376533
 20
-303.213614516
 10
604.1920442244
 20
-302.279286226
 10
607.2721279351
 20
-301.0709650556
 10
610.3793439635
 20
-299.5946707999
 10
613.4982123155
 20
-297.8577582828
 10
616.613194946
 20
-295.8688807151
 10
619.7087731681
 20
-293.6379465847
 10
622.7695249668
 20
-291.1760702932
 10
625.7802018306
 20
-288.4955167845
 10
628.7258047189
 20
-285.6096404414
 10
631.5916587863
 20
-282.5328185545
 10
634.3634864918
 20
-279.2803796959
 10
637.0274787294
 20
-275.8685273522
 10
639.5703636236
 20
-272.3142592003
 10
641.9794726499
 20
-268.6352824253
 10
644.2428037483
 20
-264.8499255044
 10
646.3490811171
 20
-260.9770468953
 10
648.2878113883
 20
-257.0359410846
 10
650.0493359054
 20
-253.0462424631
 10
651.6248788417
 20
-249.0278275086
 10
653.0065909216
 20
-245.0007157624
 10
654.1875885251
 20
-240.9849700926
 10
655.1619879814
 20
-237.000596742
 10
655.9249348815
 20
-233.0674456584
 10
656.4726282623
 20
-229.2051116025
 10
656.802339543
 20
-225.4328365285
 10
656.9124261184
 20
-221.7694137208
  0
LWPOLYLINE
  5
C8
330
1F
100
AcDbEntity
  8
0
  6
Continuous
 62
     7
370
    25
100
AcDbPolyline
 90
       82
 70
   128
 43
0.0
 10
397.1213947105
 20
-81.1022960537
 10
397.012740183
 20
-77.9316314763
 10
396.6874300618
 20
-74.9054854958
 10
396.1474208002
 20
-72.0420577102
 10
395.3959600773
 20
-69.3585691112
 10
394.4375672665
 20
-66.871158515
 10
393.2780062548
 20
-64.5947855016
 10
391.9242507787
 20
-62.543140446
 10
390.3844424827
 20
-60.7285621832
 10
388.6678419553
 20
-59.1619638002
 10
386.7847730339
 20
-57.8527670042
 10
384.7465607167
 20
-56.8088454585
 10
382.5654630523
 20
-56.0364774304
 10
380.2545974187
 20
-55.5403080319
 10
377.8278616338
 20
-55.3233212842
 10
375.299850372
 20
-55.3868221712
 10
372.6857673906
 20
-55.730428791
 10
370.0013340923
 20
-56.352074653
 10
367.2626949747
 20
-57.2480211059
 10
364.4863205357
 20
-58.4128798222
 10
361.6889082179
 20
-59.8396452045
 10
358.8872819881
 20
-61.5197365181
 10
356.0982911561
 20
-63.4430494959
 10
353.338709041
 20
-65.5980171076
 10
350.6251320943
 20
-67.9716791242
 10
347.973880087
 20
-70.5497600632
 10
345.4008979606
 20
-73.3167550424
 10
342.9216599325
 20
-76.2560230284
 10
340.5510764319
 20
-79.3498869177
 10
338.3034044268
 20
-82.579739849
 10
336.1921616811
 20
-85.9261571064
 10
334.2300454573
 20
-89.3690129431
 10
332.428856153
 20
-92.8876016187
 10
330.7994263327
 20
-96.4607619272
 10
329.351555579
 20
-100.0670044618
 10
328.0939515572
 20
-103.6846408557
 10
327.0341776456
 20
-107.2919142179
 10
326.1786074493
 20
-110.867129982
 10
325.5323864682
 20
-114.3887863797
 10
325.0994011513
 20
-117.8357037551
 10
324.8822555231
 20
-121.1871519415
 10
324.8822555231
 20
-124.4229749351
 10
325.0994011513
 20
-127.5237121157
 10
325.5323864682
 20
-130.4707152851
 10
326.1786074493
 20
-133.2462608194
 10
327.0341776456
 20
-135.8336562613
 10
328.0939515572
 20
-138.21734071
 10
329.351555579
 20
-140.3829784069
 10
330.7994263327
 20
-142.317544952
 10
332.428856153
 20
-144.0094056345
 10
334.2300454573
 20
-145.4483854051
 10
336.1921616811
 20
-146.6258300703
 10
338.3034044268
 20
-147.5346583392
 10
340.5510764319
 20
-148.1694044117
 10
342.9216599325
 20
-148.5262508503
 10
345.4008979606
 20
-148.6030515384
 10
347.973880087
 20
-148.3993445877
 10
350.6251320943
 20
-147.9163551158
 10
353.338709041
 20
-147.1569878781
 10
356.0982911561
 20
-146.1258097987
 10
358.8872819881
 20
-144.8290225037
 10
361.6889082179
 20
-143.2744250246
 10
364.4863205357
 20
-141.4713668936
 10
367.2626949747
 20
-139.4306919143
 10
370.0013340923
 20
-137.1646729463
 10
372.6857673906
 20
-134.6869380942
 10
375.299850372
 20
-132.0123887469
 10
377.8278616338
 20
-129.1571099591
 10
380.2545974187
 20
-126.1382737131
 10
382.5654630523
 20
-122.9740356455
 10
384.7465607167
 20
-119.6834258563
 10
386.7847730339
 20
-116.28623446
 10
388.6678419553
 20
-112.8028925653
 10
390.3844424827
 20
-109.2543494003
 10
391.9242507787
 20
-105.661946321
 10
393.2780062548
 20
-102.0472884624
 10
394.4375672665
 20
-98.432114802
 10
395.3959600773
 20
-94.8381674197
 10
396.1474208002
 20
-91.2870607379
 10
396.6874300618
 20
-87.80015153
 10
397.012740183
 20
-84.3984104783
 10
397.1213947105
 20
-81.1022960537
  0
LWPOLYLINE
  5
C9
330
1F
100
AcDbEntity
  8
0
  6
Continuous
 62
     7
370
    25
100
AcDbPolyline
 90
       85
 70
   128
 43
0.0
 10
650.1949116972
 20
-125.2291544978
 10
650.0861649285
 20
-121.8102669036
 10
649.7605327788
 20
-118.2849427692
 10
649.2198363148
 20
-114.6728971371
 10
648.4670993308
 20
-110.9943300317
 10
647.5065314371
 20
-107.2698134924
 10
646.3435045191
 20
-103.5201765265
 10
644.9845226952
 20
-99.7663886249
 10
643.4371859428
 20
-96.0294424922
 10
641.7101475968
 20
-92.330236647
 10
639.8130659562
 20
-88.689458549
 10
637.756550271
 20
-85.1274689061
 10
635.5521014111
 20
-81.6641878093
 10
633.2120475488
 20
-78.3189833314
 10
630.7494752145
 20
-75.1105632126
 10
628.1781561116
 20
-72.0568702398
 10
625.5124700995
 20
-69.1749819027
 10
622.7673247758
 20
-66.48101489
 10
619.9580721065
 20
-63.9900349579
 10
617.1004225722
 20
-61.7159726767
 10
614.2103573083
 20
-59.671545525
 10
611.3040387319
 20
-57.8681867689
 10
608.3977201555
 20
-56.315981522
 10
605.5076548916
 20
-55.0236103456
 10
602.6500053573
 20
-53.9983007036
 10
599.840752688
 20
-53.2457865435
 10
597.0956073643
 20
-52.7702762296
 10
594.4299213522
 20
-52.5744290086
 10
591.8586022493
 20
-52.6593401375
 10
589.396029915
 20
-53.0245347588
 10
587.0559760527
 20
-53.6679705562
 10
584.8515271928
 20
-54.5860491755
 10
582.7950115076
 20
-55.7736363488
 10
580.897929867
 20
-57.2240906069
 10
579.170891521
 20
-58.9293004212
 10
577.6235547686
 20
-60.8797295667
 10
576.2645729447
 20
-63.0644704524
 10
575.1015460267
 20
-65.4713051212
 10
574.140978133
 20
-68.0867735772
 10
573.388241149
 20
-70.89624906
 10
572.847544685
 20
-73.8840198429
 10
572.5219125353
 20
-77.0333770998
 10
572.4131657666
 20
-80.3267083475
 10
572.5219125353
 20
-83.7455959417
 10
572.847544685
 20
-87.2709200761
 10
573.388241149
 20
-90.8829657082
 10
574.140978133
 20
-94.5615328136
 10
575.1015460267
 20
-98.2860493529
 10
576.2645729447
 20
-102.0356863188
 10
577.6235547686
 20
-105.7894742204
 10
579.170891521
 20
-109.5264203531
 10
580.897929867
 20
-113.2256261983
 10
582.7950115076
 20
-116.8664042963
 10
584.8515271928
 20
-120.4283939391
 10
587.0559760527
 20
-123.8916750359
 10
589.396029915
 20
-127.2368795139
 10
591.8586022493
 20
-130.4452996327
 10
594.4299213522
 20
-133.4989926055
 10
597.0956073643
 20
-136.3808809425
 10
599.840752688
 20
-139.0748479553
 10
602.6500053573
 20
-141.5658278874
 10
605.5076548916
 20
-143.8398901686
 10
608.3977201555
 20
-145.8843173202
 10
611.3040387319
 20
-147.6876760763
 10
614.2103573083
 20
-149.2398813233
 10
617.1004225722
 20
-150.5322524997
 10
619.9580721065
 20
-151.5575621416
 10
622.7673247758
 20
-152.3100763018
 10
625.5124700995
 20
-152.7855866156
 10
628.1781561116
 20
-152.9814338367
 10
630.7494752145
 20
-152.8965227078
 10
633.2120475488
 20
-152.5313280864
 10
635.5521014111
 20
-151.8878922891
 10
637.756550271
 20
-150.9698136697
 10
639.8130659562
 20
-149.7822264964
 10
641.7101475968
 20
-148.3317722383
 10
643.4371859428
 20
-146.6265624241
 10
644.9845226952
 20
-144.6761332786
 10
646.3435045191
 20
-142.4913923928
 10
647.5065314371
 20
-140.084557724
 10
648.4670993308
 20
-137.469089268
 10
649.2198363148
 20
-134.6596137853
 10
649.7605327788
 20
-131.6718430024
 10
650.0861649285
 20
-128.5224857454
 10
650.1949116972
 20
-125.2291544978
  0
LWPOLYLINE
  5
CA
330
1F
100
AcDbEntity
  8
0
  6
Continuous
 62
     7
370
    25
100
AcDbPolyline
 90
       77
 70
   128
 43
0.0
 10
643.1238438853
 20
-121.1471139386
 10
643.0151631183
 20
-118.0500506064
 10
642.689863217
 20
-114.8486632145
 10
642.1501663097
 20
-111.5648204848
 10
641.3997590735
 20
-108.2209543931
 10
640.4437675507
 20
-104.8399069353
 10
639.2887221328
 20
-101.4447740939
 10
637.9425129512
 20
-98.0587480689
 10
636.4143359795
 20
-94.7049588515
 10
634.7146302162
 20
-91.4063162225
 10
632.855006375
 20
-88.185353256
 10
630.8481675724
 20
-85.0640723951
 10
628.7078225524
 20
-82.063795153
 10
626.4485920416
 20
-79.2050164654
 10
624.0859088754
 20
-76.5072646897
 10
621.6359125754
 20
-73.9889682058
 10
619.1153391007
 20
-71.6673295323
 10
616.5414065239
 20
-69.5582078155
 10
613.9316974145
 20
-67.6760104952
 10
611.3040387319
 20
-66.0335948878
 10
608.6763800493
 20
-64.6421803571
 10
606.0666709399
 20
-63.5112716754
 10
603.4927383631
 20
-62.6485940957
 10
600.9721648884
 20
-62.0600405804
 10
598.5221685884
 20
-61.7496315471
 10
596.1594854222
 20
-61.719487404
 10
593.9002549114
 20
-61.9698140663
 10
591.7599098914
 20
-62.498901549
 10
589.7530710888
 20
-63.3031356482
 10
587.8934472476
 20
-64.3770226294
 10
586.1937414843
 20
-65.7132267557
 10
584.6655645126
 20
-67.302620398
 10
583.319355331
 20
-69.134346386
 10
582.1643099131
 20
-71.195892174
 10
581.2083183903
 20
-73.4731753139
 10
580.4579111541
 20
-75.9506396526
 10
579.9182142468
 20
-78.6113615966
 10
579.5929143455
 20
-81.4371657171
 10
579.4842335785
 20
-84.4087489066
 10
579.5929143455
 20
-87.5058122388
 10
579.9182142468
 20
-90.7071996308
 10
580.4579111541
 20
-93.9910423604
 10
581.2083183903
 20
-97.3349084522
 10
582.1643099131
 20
-100.71595591
 10
583.319355331
 20
-104.1110887513
 10
584.6655645126
 20
-107.4971147763
 10
586.1937414843
 20
-110.8509039938
 10
587.8934472476
 20
-114.1495466228
 10
589.7530710888
 20
-117.3705095892
 10
591.7599098914
 20
-120.4917904501
 10
593.9002549114
 20
-123.4920676923
 10
596.1594854222
 20
-126.3508463798
 10
598.5221685884
 20
-129.0485981556
 10
600.9721648884
 20
-131.5668946395
 10
603.4927383631
 20
-133.888533313
 10
606.0666709399
 20
-135.9976550298
 10
608.6763800493
 20
-137.8798523501
 10
611.3040387319
 20
-139.5222679575
 10
613.9316974145
 20
-140.9136824881
 10
616.5414065239
 20
-142.0445911698
 10
619.1153391007
 20
-142.9072687496
 10
621.6359125754
 20
-143.4958222648
 10
624.0859088754
 20
-143.8062312982
 10
626.4485920416
 20
-143.8363754413
 10
628.7078225524
 20
-143.586048779
 10
630.8481675724
 20
-143.0569612962
 10
632.855006375
 20
-142.2527271971
 10
634.7146302162
 20
-141.1788402159
 10
636.4143359795
 20
-139.8426360896
 10
637.9425129512
 20
-138.2532424473
 10
639.2887221328
 20
-136.4215164592
 10
640.4437675507
 20
-134.3599706712
 10
641.3997590735
 20
-132.0826875314
 10
642.1501663097
 20
-129.6052231927
 10
642.689863217
 20
-126.9445012487
 10
643.0151631183
 20
-124.1186971282
 10
643.1238438853
 20
-121.1471139386
  0
ENDSEC
  0
SECTION
  2
OBJECTS
  0
DICTIONARY
  5
C
330
0
100
AcDbDictionary
281
     1
  3
ACAD_GROUP
350
D
  3
ACAD_LAYOUT
350
1A
  3
ACAD_MLINESTYLE
350
17
  3
ACAD_PLOTSETTINGS
350
19
  3
ACAD_PLOTSTYLENAME
350
E
  3
ACAD_SCALELIST
350
47
  0
DICTIONARY
  5
D
102
{ACAD_REACTORS
330
C
102
}
330
C
100
AcDbDictionary
281
     1
  0
DICTIONARY
  5
1A
102
{ACAD_REACTORS
330
C
102
}
330
C
100
AcDbDictionary
281
     1
  3
Layout1
350
1E
  3
Layout2
350
26
  3
Model
350
22
  0
DICTIONARY
  5
17
102
{ACAD_REACTORS
330
C
102
}
330
C
100
AcDbDictionary
281
     1
  3
Standard
350
18
  0
DICTIONARY
  5
19
102
{ACAD_REACTORS
330
C
102
}
330
C
100
AcDbDictionary
281
     1
  0
ACDBDICTIONARYWDFLT
  5
E
102
{ACAD_REACTORS
330
C
102
}
330
C
100
AcDbDictionary
281
     1
  3
Normal
350
F
100
AcDbDictionaryWithDefault
340
F
  0
DICTIONARY
  5
47
102
{ACAD_REACTORS
330
C
102
}
330
C
100
AcDbDictionary
281
     1
  3
A0
350
48
  3
A1
350
49
  3
A2
350
4A
  3
A3
350
4B
  3
A4
350
4C
  3
A5
350
4D
  3
A6
350
4E
  3
A7
350
4F
  3
A8
350
50
  3
A9
350
51
  3
B0
350
52
  3
B1
350
53
  3
B2
350
54
  3
B3
350
55
  3
B4
350
56
  3
B5
350
57
  3
B6
350
58
  3
B7
350
59
  3
B8
350
5A
  3
B9
350
5B
  3
C0
350
5C
  3
C1
350
5D
  3
C2
350
5E
  3
C3
350
5F
  3
C4
350
60
  3
C5
350
61
  3
C6
350
62
  3
C7
350
63
  3
C8
350
64
  3
C9
350
65
  3
D0
350
66
  3
D1
350
67
  3
D2
350
68
  0
LAYOUT
  5
1E
102
{ACAD_REACTORS
330
1A
102
}
330
1A
100
AcDbPlotSettings
  1

  2
none_device
  4

  6

 40
0.0
 41
0.0
 42
0.0
 43
0.0
 44
0.0
 45
0.0
 46
0.0
 47
0.0
 48
0.0
 49
0.0
140
0.0
141
0.0
142
1.0
143
1.0
 70
   688
 72
     1
 73
     0
 74
     5
  7

 75
    16
147
1.0
148
0.0
149
0.0
100
AcDbLayout
  1
Layout1
 70
     1
 71
     1
 10
0.0
 20
0.0
 11
420.0
 21
297.0
 12
0.0
 22
0.0
 32
0.0
 14
1.0000000000E+20
 24
1.0000000000E+20
 34
1.0000000000E+20
 15
-1.0000000000E+20
 25
-1.0000000000E+20
 35
-1.0000000000E+20
146
0.0
 13
0.0
 23
0.0
 33
0.0
 16
1.0
 26
0.0
 36
0.0
 17
0.0
 27
1.0
 37
0.0
 76
     0
330
1B
  0
LAYOUT
  5
26
102
{ACAD_REACTORS
330
1A
102
}
330
1A
100
AcDbPlotSettings
  1

  2
none_device
  4

  6

 40
0.0
 41
0.0
 42
0.0
 43
0.0
 44
0.0
 45
0.0
 46
0.0
 47
0.0
 48
0.0
 49
0.0
140
0.0
141
0.0
142
1.0
143
1.0
 70
   688
 72
     1
 73
     0
 74
     5
  7

 75
    16
147
1.0
148
0.0
149
0.0
100
AcDbLayout
  1
Layout2
 70
     1
 71
     2
 10
0.0
 20
0.0
 11
0.0
 21
0.0
 12
0.0
 22
0.0
 32
0.0
 14
0.0
 24
0.0
 34
0.0
 15
0.0
 25
0.0
 35
0.0
146
0.0
 13
0.0
 23
0.0
 33
0.0
 16
1.0
 26
0.0
 36
0.0
 17
0.0
 27
1.0
 37
0.0
 76
     0
330
23
  0
LAYOUT
  5
22
102
{ACAD_REACTORS
330
1A
102
}
330
1A
100
AcDbPlotSettings
  1

  2
none_device
  4
Letter_(8.50_x_11.00_Inches)
  6

 40
6.35
 41
6.35
 42
6.35000508
 43
6.35000508
 44
215.9
 45
279.4
 46
0.0
 47
0.0
 48
0.0
 49
0.0
140
0.0
141
0.0
142
1.0
143
1.0
 70
  1712
 72
     1
 73
     0
 74
     0
  7

 75
     0
147
1.0
148
0.0
149
0.0
100
AcDbLayout
  1
Model
 70
     1
 71
     0
 10
0.0
 20
0.0
 11
279.4
 21
215.9
 12
0.0
 22
0.0
 32
0.0
 14
0.0
 24
0.0
 34
0.0
 15
279.4
 25
215.9
 35
0.0
146
0.0
 13
0.0
 23
0.0
 33
0.0
 16
1.0
 26
0.0
 36
0.0
 17
0.0
 27
1.0
 37
0.0
 76
     0
330
1F
331
29
  0
MLINESTYLE
  5
18
102
{ACAD_REACTORS
330
17
102
}
330
17
100
AcDbMlineStyle
  2
Standard
 70
     0
  3

 62
   256
 51
90.0
 52
90.0
 71
     2
 49
0.5
 62
   256
  6
BYLAYER
 49
-0.5
 62
   256
  6
BYLAYER
  0
ACDBPLACEHOLDER
  5
F
102
{ACAD_REACTORS
330
E
102
}
330
E
  0
SCALE
  5
48
102
{ACAD_REACTORS
330
47
102
}
330
47
100
AcDbScale
 70
     0
300
1:1
140
1.0
141
1.0
290
     1
  0
SCALE
  5
49
102
{ACAD_REACTORS
330
47
102
}
330
47
100
AcDbScale
 70
     0
300
1:2
140
1.0
141
2.0
290
     0
  0
SCALE
  5
4A
102
{ACAD_REACTORS
330
47
102
}
330
47
100
AcDbScale
 70
     0
300
1:4
140
1.0
141
4.0
290
     0
  0
SCALE
  5
4B
102
{ACAD_REACTORS
330
47
102
}
330
47
100
AcDbScale
 70
     0
300
1:5
140
1.0
141
5.0
290
     0
  0
SCALE
  5
4C
102
{ACAD_REACTORS
330
47
102
}
330
47
100
AcDbScale
 70
     0
300
1:8
140
1.0
141
8.0
290
     0
  0
SCALE
  5
4D
102
{ACAD_REACTORS
330
47
102
}
330
47
100
AcDbScale
 70
     0
300
1:10
140
1.0
141
10.0
290
     0
  0
SCALE
  5
4E
102
{ACAD_REACTORS
330
47
102
}
330
47
100
AcDbScale
 70
     0
300
1:16
140
1.0
141
16.0
290
     0
  0
SCALE
  5
4F
102
{ACAD_REACTORS
330
47
102
}
330
47
100
AcDbScale
 70
     0
300
1:20
140
1.0
141
20.0
290
     0
  0
SCALE
  5
50
102
{ACAD_REACTORS
330
47
102
}
330
47
100
AcDbScale
 70
     0
300
1:30
140
1.0
141
30.0
290
     0
  0
SCALE
  5
51
102
{ACAD_REACTORS
330
47
102
}
330
47
100
AcDbScale
 70
     0
300
1:40
140
1.0
141
40.0
290
     0
  0
SCALE
  5
52
102
{ACAD_REACTORS
330
47
102
}
330
47
100
AcDbScale
 70
     0
300
1:50
140
1.0
141
50.0
290
     0
  0
SCALE
  5
53
102
{ACAD_REACTORS
330
47
102
}
330
47
100
AcDbScale
 70
     0
300
1:100
140
1.0
141
100.0
290
     0
  0
SCALE
  5
54
102
{ACAD_REACTORS
330
47
102
}
330
47
100
AcDbScale
 70
     0
300
2:1
140
2.0
141
1.0
290
     0
  0
SCALE
  5
55
102
{ACAD_REACTORS
330
47
102
}
330
47
100
AcDbScale
 70
     0
300
4:1
140
4.0
141
1.0
290
     0
  0
SCALE
  5
56
102
{ACAD_REACTORS
330
47
102
}
330
47
100
AcDbScale
 70
     0
300
8:1
140
8.0
141
1.0
290
     0
  0
SCALE
  5
57
102
{ACAD_REACTORS
330
47
102
}
330
47
100
AcDbScale
 70
     0
300
10:1
140
10.0
141
1.0
290
     0
  0
SCALE
  5
58
102
{ACAD_REACTORS
330
47
102
}
330
47
100
AcDbScale
 70
     0
300
100:1
140
100.0
141
1.0
290
     0
  0
SCALE
  5
59
102
{ACAD_REACTORS
330
47
102
}
330
47
100
AcDbScale
 70
     0
300
1/128" = 1'-0"
140
0.0078125
141
12.0
290
     0
  0
SCALE
  5
5A
102
{ACAD_REACTORS
330
47
102
}
330
47
100
AcDbScale
 70
     0
300
1/64" = 1'-0"
140
0.015625
141
12.0
290
     0
  0
SCALE
  5
5B
102
{ACAD_REACTORS
330
47
102
}
330
47
100
AcDbScale
 70
     0
300
1/32" = 1'-0"
140
0.03125
141
12.0
290
     0
  0
SCALE
  5
5C
102
{ACAD_REACTORS
330
47
102
}
330
47
100
AcDbScale
 70
     0
300
1/16" = 1'-0"
140
0.0625
141
12.0
290
     0
  0
SCALE
  5
5D
102
{ACAD_REACTORS
330
47
102
}
330
47
100
AcDbScale
 70
     0
300
3/32" = 1'-0"
140
0.09375
141
12.0
290
     0
  0
SCALE
  5
5E
102
{ACAD_REACTORS
330
47
102
}
330
47
100
AcDbScale
 70
     0
300
1/8" = 1'-0"
140
0.125
141
12.0
290
     0
  0
SCALE
  5
5F
102
{ACAD_REACTORS
330
47
102
}
330
47
100
AcDbScale
 70
     0
300
3/16" = 1'-0"
140
0.1875
141
12.0
290
     0
  0
SCALE
  5
60
102
{ACAD_REACTORS
330
47
102
}
330
47
100
AcDbScale
 70
     0
300
1/4" = 1'-0"
140
0.25
141
12.0
290
     0
  0
SCALE
  5
61
102
{ACAD_REACTORS
330
47
102
}
330
47
100
AcDbScale
 70
     0
300
3/8" = 1'-0"
140
0.375
141
12.0
290
     0
  0
SCALE
  5
62
102
{ACAD_REACTORS
330
47
102
}
330
47
100
AcDbScale
 70
     0
300
1/2" = 1'-0"
140
0.5
141
12.0
290
     0
  0
SCALE
  5
63
102
{ACAD_REACTORS
330
47
102
}
330
47
100
AcDbScale
 70
     0
300
3/4" = 1'-0"
140
0.75
141
12.0
290
     0
  0
SCALE
  5
64
102
{ACAD_REACTORS
330
47
102
}
330
47
100
AcDbScale
 70
     0
300
1" = 1'-0"
140
1.0
141
12.0
290
     0
  0
SCALE
  5
65
102
{ACAD_REACTORS
330
47
102
}
330
47
100
AcDbScale
 70
     0
300
1-1/2" = 1'-0"
140
1.5
141
12.0
290
     0
  0
SCALE
  5
66
102
{ACAD_REACTORS
330
47
102
}
330
47
100
AcDbScale
 70
     0
300
3" = 1'-0"
140
3.0
141
12.0
290
     0
  0
SCALE
  5
67
102
{ACAD_REACTORS
330
47
102
}
330
47
100
AcDbScale
 70
     0
300
6" = 1'-0"
140
6.0
141
12.0
290
     0
  0
SCALE
  5
68
102
{ACAD_REACTORS
330
47
102
}
330
47
100
AcDbScale
 70
     0
300
1'-0" = 1'-0"
140
12.0
141
12.0
290
     0
  0
ENDSEC
  0
EOF
